  0
SECTION
  2
HEADER
  9
$ACADVER
  1
AC1015
  9
$ACADMAINTVER
 70
     6
  9
$DWGCODEPAGE
  3
ANSI_1254
  9
$INSBASE
 10
0.0
 20
0.0
 30
0.0
  9
$EXTMIN
 10
0.0
 20
0.0
 30
0.0
  9
$EXTMAX
 10
279.4
 20
215.9
 30
0.0
  9
$LIMMIN
 10
0.0
 20
0.0
  9
$LIMMAX
 10
279.4
 20
215.9
  9
$ORTHOMODE
 70
     0
  9
$REGENMODE
 70
     1
  9
$FILLMODE
 70
     1
  9
$QTEXTMODE
 70
     0
  9
$MIRRTEXT
 70
     1
  9
$LTSCALE
 40
1.0
  9
$ATTMODE
 70
     1
  9
$TEXTSIZE
 40
3.5
  9
$TRACEWID
 40
1.0
  9
$TEXTSTYLE
  7
Standard
  9
$CLAYER
  8
0
  9
$CELTYPE
  6
ByLayer
  9
$CECOLOR
 62
   256
  9
$CELTSCALE
 40
1.0
  9
$DISPSILH
 70
     0
  9
$DIMSCALE
 40
1.0
  9
$DIMASZ
 40
3.5
  9
$DIMEXO
 40
1.0
  9
$DIMDLI
 40
3.75
  9
$DIMRND
 40
0.0
  9
$DIMDLE
 40
0.0
  9
$DIMEXE
 40
1.0
  9
$DIMTP
 40
0.0
  9
$DIMTM
 40
0.0
  9
$DIMTXT
 40
3.5
  9
$DIMCEN
 40
2.5
  9
$DIMTSZ
 40
0.0
  9
$DIMTOL
 70
     0
  9
$DIMLIM
 70
     0
  9
$DIMTIH
 70
     1
  9
$DIMTOH
 70
     1
  9
$DIMSE1
 70
     0
  9
$DIMSE2
 70
     0
  9
$DIMTAD
 70
     1
  9
$DIMZIN
 70
     0
  9
$DIMBLK
  1

  9
$DIMASO
 70
     1
  9
$DIMSHO
 70
     1
  9
$DIMPOST
  1

  9
$DIMAPOST
  1

  9
$DIMALT
 70
     0
  9
$DIMALTD
 70
     3
  9
$DIMALTF
 40
0.0393700787
  9
$DIMLFAC
 40
1.0
  9
$DIMTOFL
 70
     1
  9
$DIMTVP
 40
0.0
  9
$DIMTIX
 70
     0
  9
$DIMSOXD
 70
     0
  9
$DIMSAH
 70
     0
  9
$DIMBLK1
  1

  9
$DIMBLK2
  1

  9
$DIMSTYLE
  2
ISO-25
  9
$DIMCLRD
 70
     0
  9
$DIMCLRE
 70
     0
  9
$DIMCLRT
 70
     0
  9
$DIMTFAC
 40
1.0
  9
$DIMGAP
 40
1.524
  9
$DIMJUST
 70
     0
  9
$DIMSD1
 70
     0
  9
$DIMSD2
 70
     0
  9
$DIMTOLJ
 70
     0
  9
$DIMTZIN
 70
     0
  9
$DIMALTZ
 70
     0
  9
$DIMALTTZ
 70
     0
  9
$DIMUPT
 70
     0
  9
$DIMDEC
 70
     2
  9
$DIMTDEC
 70
     2
  9
$DIMALTU
 70
     2
  9
$DIMALTTD
 70
     3
  9
$DIMTXSTY
  7
Standard
  9
$DIMAUNIT
 70
     0
  9
$DIMADEC
 70
     2
  9
$DIMALTRND
 40
0.0
  9
$DIMAZIN
 70
     0
  9
$DIMDSEP
 70
    44
  9
$DIMATFIT
 70
     3
  9
$DIMFRAC
 70
     0
  9
$DIMLDRBLK
  1

  9
$DIMLUNIT
 70
     2
  9
$DIMLWD
 70
    -2
  9
$DIMLWE
 70
    -2
  9
$DIMTMOVE
 70
     0
  9
$LUNITS
 70
     2
  9
$LUPREC
 70
     2
  9
$SKETCHINC
 40
1.0
  9
$FILLETRAD
 40
10.0
  9
$AUNITS
 70
     0
  9
$AUPREC
 70
     2
  9
$MENU
  1
.
  9
$ELEVATION
 40
0.0
  9
$PELEVATION
 40
0.0
  9
$THICKNESS
 40
0.0
  9
$LIMCHECK
 70
     0
  9
$CHAMFERA
 40
0.0
  9
$CHAMFERB
 40
0.0
  9
$CHAMFERC
 40
0.0
  9
$CHAMFERD
 40
0.0
  9
$SKPOLY
 70
     0
  9
$TDCREATE
 40
2458985.682073009
  9
$TDUCREATE
 40
2458985.557073009
  9
$TDUPDATE
 40
2458985.682073379
  9
$TDUUPDATE
 40
2458985.557073379
  9
$TDINDWG
 40
0.0000000116
  9
$TDUSRTIMER
 40
0.0000000116
  9
$USRTIMER
 70
     1
  9
$ANGBASE
 50
0.0
  9
$ANGDIR
 70
     0
  9
$PDMODE
 70
     0
  9
$PDSIZE
 40
-1.0
  9
$PLINEWID
 40
0.0
  9
$SPLFRAME
 70
     0
  9
$SPLINETYPE
 70
     6
  9
$SPLINESEGS
 70
     8
  9
$HANDSEED
  5
CB
  9
$SURFTAB1
 70
     6
  9
$SURFTAB2
 70
     6
  9
$SURFTYPE
 70
     6
  9
$SURFU
 70
     6
  9
$SURFV
 70
     6
  9
$UCSBASE
  2

  9
$UCSNAME
  2

  9
$UCSORG
 10
0.0
 20
0.0
 30
0.0
  9
$UCSXDIR
 10
1.0
 20
0.0
 30
0.0
  9
$UCSYDIR
 10
0.0
 20
1.0
 30
0.0
  9
$UCSORTHOREF
  2

  9
$UCSORTHOVIEW
 70
     0
  9
$UCSORGTOP
 10
0.0
 20
0.0
 30
0.0
  9
$UCSORGBOTTOM
 10
0.0
 20
0.0
 30
0.0
  9
$UCSORGLEFT
 10
0.0
 20
0.0
 30
0.0
  9
$UCSORGRIGHT
 10
0.0
 20
0.0
 30
0.0
  9
$UCSORGFRONT
 10
0.0
 20
0.0
 30
0.0
  9
$UCSORGBACK
 10
0.0
 20
0.0
 30
0.0
  9
$PUCSBASE
  2

  9
$PUCSNAME
  2

  9
$PUCSORG
 10
0.0
 20
0.0
 30
0.0
  9
$PUCSXDIR
 10
1.0
 20
0.0
 30
0.0
  9
$PUCSYDIR
 10
0.0
 20
1.0
 30
0.0
  9
$PUCSORTHOREF
  2

  9
$PUCSORTHOVIEW
 70
     0
  9
$PUCSORGTOP
 10
0.0
 20
0.0
 30
0.0
  9
$PUCSORGBOTTOM
 10
0.0
 20
0.0
 30
0.0
  9
$PUCSORGLEFT
 10
0.0
 20
0.0
 30
0.0
  9
$PUCSORGRIGHT
 10
0.0
 20
0.0
 30
0.0
  9
$PUCSORGFRONT
 10
0.0
 20
0.0
 30
0.0
  9
$PUCSORGBACK
 10
0.0
 20
0.0
 30
0.0
  9
$USERI1
 70
     0
  9
$USERI2
 70
     0
  9
$USERI3
 70
     0
  9
$USERI4
 70
     0
  9
$USERI5
 70
     0
  9
$USERR1
 40
0.0
  9
$USERR2
 40
0.0
  9
$USERR3
 40
0.0
  9
$USERR4
 40
0.0
  9
$USERR5
 40
0.0
  9
$WORLDVIEW
 70
     1
  9
$SHADEDGE
 70
     3
  9
$SHADEDIF
 70
    70
  9
$TILEMODE
 70
     1
  9
$MAXACTVP
 70
    64
  9
$PINSBASE
 10
0.0
 20
0.0
 30
0.0
  9
$PLIMCHECK
 70
     0
  9
$PEXTMIN
 10
1.0000000000E+20
 20
1.0000000000E+20
 30
1.0000000000E+20
  9
$PEXTMAX
 10
-1.0000000000E+20
 20
-1.0000000000E+20
 30
-1.0000000000E+20
  9
$PLIMMIN
 10
0.0
 20
0.0
  9
$PLIMMAX
 10
420.0
 20
297.0
  9
$UNITMODE
 70
     0
  9
$VISRETAIN
 70
     1
  9
$PLINEGEN
 70
     0
  9
$PSLTSCALE
 70
     1
  9
$TREEDEPTH
 70
  3020
  9
$CMLSTYLE
  2
Standard
  9
$CMLJUST
 70
     0
  9
$CMLSCALE
 40
20.0
  9
$PROXYGRAPHICS
 70
     1
  9
$MEASUREMENT
 70
     1
  9
$CELWEIGHT
370
    -1
  9
$ENDCAPS
280
     0
  9
$JOINSTYLE
280
     0
  9
$LWDISPLAY
290
     1
  9
$INSUNITS
 70
     4
  9
$HYPERLINKBASE
  1

  9
$STYLESHEET
  1

  9
$XEDIT
290
     1
  9
$CEPSNTYPE
380
     0
  9
$PSTYLEMODE
290
     1
  9
$FINGERPRINTGUID
  2
{66009e2b-1bc7-49b4-974e-06ed23ddf1f6}
  9
$VERSIONGUID
  2
{FAEB1C32-E019-11D5-929B-00C0DF256EC4}
  9
$EXTNAMES
290
     1
  9
$PSVPSCALE
 40
0.0
  9
$OLESTARTUP
290
     0
  0
ENDSEC
  0
SECTION
  2
CLASSES
  0
CLASS
  1
ACDBDICTIONARYWDFLT
  2
AcDbDictionaryWithDefault
  3
ObjectDBX Classes
 90
        0
280
     0
281
     0
  0
CLASS
  1
VISUALSTYLE
  2
AcDbVisualStyle
  3
ObjectDBX Classes
 90
     4095
280
     0
281
     0
  0
CLASS
  1
MATERIAL
  2
AcDbMaterial
  3
ObjectDBX Classes
 90
     1153
280
     0
281
     0
  0
CLASS
  1
SCALE
  2
AcDbScale
  3
ObjectDBX Classes
 90
     1153
280
     0
281
     0
  0
CLASS
  1
TABLESTYLE
  2
AcDbTableStyle
  3
ObjectDBX Classes
 90
     4095
280
     0
281
     0
  0
CLASS
  1
MLEADERSTYLE
  2
AcDbMLeaderStyle
  3
ACDB_MLEADERSTYLE_CLASS
 90
     4095
280
     0
281
     0
  0
CLASS
  1
SUN
  2
AcDbSun
  3
SCENEOE
 90
     1153
280
     0
281
     0
  0
CLASS
  1
ACDBPLACEHOLDER
  2
AcDbPlaceHolder
  3
ObjectDBX Classes
 90
        0
280
     0
281
     0
  0
CLASS
  1
LAYOUT
  2
AcDbLayout
  3
ObjectDBX Classes
 90
        0
280
     0
281
     0
  0
ENDSEC
  0
SECTION
  2
TABLES
  0
TABLE
  2
VPORT
  5
8
330
0
100
AcDbSymbolTable
 70
     1
  0
VPORT
  5
29
330
8
100
AcDbSymbolTableRecord
100
AcDbViewportTableRecord
  2
*Active
 70
     0
 10
0.0
 20
0.0
 11
1.0
 21
1.0
 12
139.7
 22
107.95
 13
0.0
 23
0.0
 14
10.0
 24
10.0
 15
10.0
 25
10.0
 16
0.0
 26
0.0
 36
1.0
 17
0.0
 27
0.0
 37
0.0
 40
215.9
 41
1.2941176471
 42
50.0
 43
0.0
 44
0.0
 50
0.0
 51
0.0
 71
     0
 72
  2000
 73
     1
 74
     3
 75
     0
 76
     0
 77
     0
 78
     0
281
     0
 65
     1
110
0.0
120
0.0
130
0.0
111
1.0
121
0.0
131
0.0
112
0.0
122
1.0
132
0.0
 79
     0
146
0.0
  0
ENDTAB
  0
TABLE
  2
LTYPE
  5
5
330
0
100
AcDbSymbolTable
 70
     6
  0
LTYPE
  5
14
330
5
100
AcDbSymbolTableRecord
100
AcDbLinetypeTableRecord
  2
ByBlock
 70
     0
  3

 72
    65
 73
     0
 40
0.0
  0
LTYPE
  5
15
330
5
100
AcDbSymbolTableRecord
100
AcDbLinetypeTableRecord
  2
ByLayer
 70
     0
  3

 72
    65
 73
     0
 40
0.0
  0
LTYPE
  5
16
330
5
100
AcDbSymbolTableRecord
100
AcDbLinetypeTableRecord
  2
Continuous
 70
     0
  3
Solid line
 72
    65
 73
     0
 40
0.0
  0
LTYPE
  5
6E
330
5
100
AcDbSymbolTableRecord
100
AcDbLinetypeTableRecord
  2
HIDDEN
 70
     0
  3
Hidden __ __ __ __ __ __ __ __ __ __ __ __ __ __
 72
    65
 73
     2
 40
1.905
 49
1.27
 74
     0
 49
-0.635
 74
     0
  0
LTYPE
  5
6F
330
5
100
AcDbSymbolTableRecord
100
AcDbLinetypeTableRecord
  2
PHANTOM
 70
     0
  3
Phantom ______  __  __  ______  __  __  ______
 72
    65
 73
     6
 40
12.7
 49
6.35
 74
     0
 49
-1.27
 74
     0
 49
1.27
 74
     0
 49
-1.27
 74
     0
 49
1.27
 74
     0
 49
-1.27
 74
     0
  0
LTYPE
  5
70
330
5
100
AcDbSymbolTableRecord
100
AcDbLinetypeTableRecord
  2
CENTER
 70
     0
  3
Center ____ _ ____ _ ____ _ ____ _ ____ _ ____
 72
    65
 73
     4
 40
10.16
 49
6.35
 74
     0
 49
-1.27
 74
     0
 49
1.27
 74
     0
 49
-1.27
 74
     0
  0
LTYPE
  5
71
330
5
100
AcDbSymbolTableRecord
100
AcDbLinetypeTableRecord
  2
CENTERX2
 70
     0
  3
Center (2x) ________  __  ________  __  _____
 72
    65
 73
     4
 40
20.32
 49
12.7
 74
     0
 49
-2.54
 74
     0
 49
2.54
 74
     0
 49
-2.54
 74
     0
  0
LTYPE
  5
72
330
5
100
AcDbSymbolTableRecord
100
AcDbLinetypeTableRecord
  2
DOT2
 70
     0
  3
Dot (.5x) ........................................
 72
    65
 73
     2
 40
0.635
 49
0.0
 74
     0
 49
-0.635
 74
     0
  0
ENDTAB
  0
TABLE
  2
LAYER
  5
2
330
0
100
AcDbSymbolTable
 70
    17
  0
LAYER
  5
10
330
2
100
AcDbSymbolTableRecord
100
AcDbLayerTableRecord
  2
0
 70
     0
 62
     7
  6
Continuous
370
    -3
390
F
  0
LAYER
  5
73
330
2
100
AcDbSymbolTableRecord
100
AcDbLayerTableRecord
  2
FORMAT
 70
     0
 62
     7
  6
Continuous
370
    -3
390
F
  0
LAYER
  5
74
330
2
100
AcDbSymbolTableRecord
100
AcDbLayerTableRecord
  2
YARDIMCI_GEOMETRI
 70
     0
 62
    -6
  6
Continuous
290
     0
370
    -3
390
F
  0
LAYER
  5
75
330
2
100
AcDbSymbolTableRecord
100
AcDbLayerTableRecord
  2
SAYFA_CERCEVESI
 70
     0
 62
     7
  6
Continuous
370
    25
390
F
  0
LAYER
  5
76
330
2
100
AcDbSymbolTableRecord
100
AcDbLayerTableRecord
  2
ANTET
 70
     0
 62
     7
  6
Continuous
370
    -3
390
F
  0
LAYER
  5
77
330
2
100
AcDbSymbolTableRecord
100
AcDbLayerTableRecord
  2
OLCU
 70
     0
 62
   150
  6
Continuous
370
    -3
390
F
  0
LAYER
  5
78
330
2
100
AcDbSymbolTableRecord
100
AcDbLayerTableRecord
  2
METIN
 70
     0
 62
    96
  6
Continuous
370
    -3
390
F
  0
LAYER
  5
79
330
2
100
AcDbSymbolTableRecord
100
AcDbLayerTableRecord
  2
BALON
 70
     0
 62
     5
  6
Continuous
370
    -3
390
F
  0
LAYER
  5
7A
330
2
100
AcDbSymbolTableRecord
100
AcDbLayerTableRecord
  2
VURGU
 70
     0
 62
     7
  6
Continuous
370
    -3
390
F
  0
LAYER
  5
7B
330
2
100
AcDbSymbolTableRecord
100
AcDbLayerTableRecord
  2
SILIK
 70
     0
 62
     7
  6
Continuous
370
    -3
390
F
  0
LAYER
  5
7C
330
2
100
AcDbSymbolTableRecord
100
AcDbLayerTableRecord
  2
MODEL
 70
     0
 62
     7
  6
Continuous
370
    -3
390
F
  0
LAYER
  5
7D
330
2
100
AcDbSymbolTableRecord
100
AcDbLayerTableRecord
  2
DETAYLANDıRMA
 70
     0
 62
   190
  6
Continuous
370
    -3
390
F
  0
LAYER
  5
7E
330
2
100
AcDbSymbolTableRecord
100
AcDbLayerTableRecord
  2
TOLERANS
 70
     0
 62
   230
  6
Continuous
370
    -3
390
F
  0
LAYER
  5
7F
330
2
100
AcDbSymbolTableRecord
100
AcDbLayerTableRecord
  2
MERKEZ_CIZGILERI
 70
     0
 62
    30
  6
Continuous
370
    -3
390
F
  0
LAYER
  5
80
330
2
100
AcDbSymbolTableRecord
100
AcDbLayerTableRecord
  2
KESIT-DETAY_CIZGILERI
 70
     0
 62
     7
  6
Continuous
370
    -3
390
F
  0
LAYER
  5
81
330
2
100
AcDbSymbolTableRecord
100
AcDbLayerTableRecord
  2
\U+041E\U+0421\U+0415\U+0412\U+042B\U+0415
 70
     0
 62
     7
  6
Continuous
370
    -3
390
F
  0
LAYER
  5
82
330
2
100
AcDbSymbolTableRecord
100
AcDbLayerTableRecord
  2
\U+0412\U+041E\U+0414\U+042F\U+041D\U+042B\U+0415_\U+0417\U+041D\U+0410\U+041A\U+0418
 70
     0
 62
    11
  6
Continuous
370
    -3
390
F
  0
ENDTAB
  0
TABLE
  2
STYLE
  5
3
330
0
100
AcDbSymbolTable
 70
     1
  0
STYLE
  5
11
330
3
100
AcDbSymbolTableRecord
100
AcDbTextStyleTableRecord
  2
Standard
 70
     0
 40
0.0
 41
1.0
 50
0.0
 71
     0
 42
3.5
  3
txt
  4

  0
ENDTAB
  0
TABLE
  2
VIEW
  5
6
330
0
100
AcDbSymbolTable
 70
     0
  0
ENDTAB
  0
TABLE
  2
UCS
  5
7
330
0
100
AcDbSymbolTable
 70
     0
  0
ENDTAB
  0
TABLE
  2
APPID
  5
9
330
0
100
AcDbSymbolTable
 70
     1
  0
APPID
  5
12
330
9
100
AcDbSymbolTableRecord
100
AcDbRegAppTableRecord
  2
ACAD
 70
     0
  0
ENDTAB
  0
TABLE
  2
DIMSTYLE
  5
A
330
0
100
AcDbSymbolTable
 70
     1
100
AcDbDimStyleTable
  0
DIMSTYLE
105
27
330
A
100
AcDbSymbolTableRecord
100
AcDbDimStyleTableRecord
  2
ISO-25
 70
     0
 41
2.5
 42
0.625
 43
3.75
 44
1.25
 73
     0
 74
     0
 77
     1
 78
     8
140
2.5
141
2.5
143
0.0393700787
147
0.625
171
     3
172
     1
178
     0
271
     2
272
     2
274
     3
278
    44
283
     0
284
     8
340
11
  0
ENDTAB
  0
TABLE
  2
BLOCK_RECORD
  5
1
330
0
100
AcDbSymbolTable
 70
     3
  0
BLOCK_RECORD
  5
1F
330
1
100
AcDbSymbolTableRecord
100
AcDbBlockTableRecord
  2
*Model_Space
340
22
  0
BLOCK_RECORD
  5
1B
330
1
100
AcDbSymbolTableRecord
100
AcDbBlockTableRecord
  2
*Paper_Space
340
1E
  0
BLOCK_RECORD
  5
23
330
1
100
AcDbSymbolTableRecord
100
AcDbBlockTableRecord
  2
*Paper_Space0
340
26
  0
BLOCK_RECORD
  5
88
330
1
100
AcDbSymbolTableRecord
100
AcDbBlockTableRecord
  2
SW_CENTERMARKSYMBOL_0
340
0
102
{BLKREFS
331
93
102
}
  0
BLOCK_RECORD
  5
B2
330
1
100
AcDbSymbolTableRecord
100
AcDbBlockTableRecord
  2
SW_CENTERMARKSYMBOL_1
340
0
102
{BLKREFS
331
BD
102
}
  0
ENDTAB
  0
ENDSEC
  0
SECTION
  2
BLOCKS
  0
BLOCK
  5
20
330
1F
100
AcDbEntity
  8
0
100
AcDbBlockBegin
  2
*Model_Space
 70
     0
 10
0.0
 20
0.0
 30
0.0
  3
*Model_Space
  1

  0
ENDBLK
  5
21
330
1F
100
AcDbEntity
  8
0
100
AcDbBlockEnd
  0
BLOCK
  5
1C
330
1B
100
AcDbEntity
 67
     1
  8
0
100
AcDbBlockBegin
  2
*Paper_Space
 70
     0
 10
0.0
 20
0.0
 30
0.0
  3
*Paper_Space
  1

  0
ENDBLK
  5
1D
330
1B
100
AcDbEntity
 67
     1
  8
0
100
AcDbBlockEnd
  0
BLOCK
  5
24
330
23
100
AcDbEntity
  8
0
100
AcDbBlockBegin
  2
*Paper_Space0
 70
     0
 10
0.0
 20
0.0
 30
0.0
  3
*Paper_Space0
  1

  0
ENDBLK
  5
25
330
23
100
AcDbEntity
  8
0
100
AcDbBlockEnd
  0
BLOCK
  5
89
330
88
100
AcDbEntity
  8
0
100
AcDbBlockBegin
  2
SW_CENTERMARKSYMBOL_0
 70
     0
 10
0.0
 20
0.0
 30
0.0
  3
SW_CENTERMARKSYMBOL_0
  1

  0
LINE
  5
8B
330
88
100
AcDbEntity
  8
FORMAT
 62
     0
100
AcDbLine
 10
0.0
 20
0.0
 30
0.0
 11
0.0
 21
2.5
 31
0.0
  0
LINE
  5
8C
330
88
100
AcDbEntity
  8
FORMAT
 62
     0
100
AcDbLine
 10
0.0
 20
0.0
 30
0.0
 11
-2.5
 21
0.0
 31
0.0
  0
LINE
  5
8D
330
88
100
AcDbEntity
  8
FORMAT
 62
     0
100
AcDbLine
 10
0.0
 20
0.0
 30
0.0
 11
0.0
 21
-2.5
 31
0.0
  0
LINE
  5
8E
330
88
100
AcDbEntity
  8
FORMAT
 62
     0
100
AcDbLine
 10
0.0
 20
0.0
 30
0.0
 11
2.5
 21
0.0
 31
0.0
  0
LINE
  5
8F
330
88
100
AcDbEntity
  8
FORMAT
 62
     0
100
AcDbLine
 10
0.0
 20
5.0
 30
0.0
 11
0.0
 21
40.0
 31
0.0
  0
LINE
  5
90
330
88
100
AcDbEntity
  8
FORMAT
 62
     0
100
AcDbLine
 10
-5.0
 20
0.0
 30
0.0
 11
-40.0
 21
0.0
 31
0.0
  0
LINE
  5
91
330
88
100
AcDbEntity
  8
FORMAT
 62
     0
100
AcDbLine
 10
0.0
 20
-5.0
 30
0.0
 11
0.0
 21
-40.0
 31
0.0
  0
LINE
  5
92
330
88
100
AcDbEntity
  8
FORMAT
 62
     0
100
AcDbLine
 10
5.0
 20
0.0
 30
0.0
 11
40.0
 21
0.0
 31
0.0
  0
ENDBLK
  5
8A
330
88
100
AcDbEntity
  8
0
100
AcDbBlockEnd
  0
BLOCK
  5
B3
330
B2
100
AcDbEntity
  8
0
100
AcDbBlockBegin
  2
SW_CENTERMARKSYMBOL_1
 70
     0
 10
0.0
 20
0.0
 30
0.0
  3
SW_CENTERMARKSYMBOL_1
  1

  0
LINE
  5
B5
330
B2
100
AcDbEntity
  8
FORMAT
 62
     0
100
AcDbLine
 10
0.0
 20
0.0
 30
0.0
 11
0.0
 21
2.5
 31
0.0
  0
LINE
  5
B6
330
B2
100
AcDbEntity
  8
FORMAT
 62
     0
100
AcDbLine
 10
0.0
 20
0.0
 30
0.0
 11
-2.5
 21
0.0
 31
0.0
  0
LINE
  5
B7
330
B2
100
AcDbEntity
  8
FORMAT
 62
     0
100
AcDbLine
 10
0.0
 20
0.0
 30
0.0
 11
0.0
 21
-2.5
 31
0.0
  0
LINE
  5
B8
330
B2
100
AcDbEntity
  8
FORMAT
 62
     0
100
AcDbLine
 10
0.0
 20
0.0
 30
0.0
 11
2.5
 21
0.0
 31
0.0
  0
LINE
  5
B9
330
B2
100
AcDbEntity
  8
FORMAT
 62
     0
100
AcDbLine
 10
0.0
 20
5.0
 30
0.0
 11
0.0
 21
27.5
 31
0.0
  0
LINE
  5
BA
330
B2
100
AcDbEntity
  8
FORMAT
 62
     0
100
AcDbLine
 10
-5.0
 20
0.0
 30
0.0
 11
-27.5
 21
0.0
 31
0.0
  0
LINE
  5
BB
330
B2
100
AcDbEntity
  8
FORMAT
 62
     0
100
AcDbLine
 10
0.0
 20
-5.0
 30
0.0
 11
0.0
 21
-27.5
 31
0.0
  0
LINE
  5
BC
330
B2
100
AcDbEntity
  8
FORMAT
 62
     0
100
AcDbLine
 10
5.0
 20
0.0
 30
0.0
 11
27.5
 21
0.0
 31
0.0
  0
ENDBLK
  5
B4
330
B2
100
AcDbEntity
  8
0
100
AcDbBlockEnd
  0
ENDSEC
  0
SECTION
  2
ENTITIES
  0
LINE
  5
83
330
1F
100
AcDbEntity
  8
0
  6
Continuous
 62
     7
370
    25
100
AcDbLine
 10
146.5281612958
 20
90.0029005303
 30
0.0
 11
231.5275510204
 21
90.0029005303
 31
0.0
  0
LINE
  5
84
330
1F
100
AcDbEntity
  8
0
  6
Continuous
 62
     7
370
    25
100
AcDbLine
 10
231.5275510204
 20
140.0029005303
 30
0.0
 11
146.5000580026
 21
140.0029005303
 31
0.0
  0
CIRCLE
  5
85
330
1F
100
AcDbEntity
  8
0
  6
Continuous
 62
     7
370
    25
100
AcDbCircle
 10
118.5275510204
 20
115.0029005303
 30
0.0
 40
30.7
  0
CIRCLE
  5
86
330
1F
100
AcDbEntity
  8
0
  6
Continuous
 62
     7
370
    25
100
AcDbCircle
 10
118.5275510204
 20
115.0029005303
 30
0.0
 40
37.50000000000001
  0
LINE
  5
87
330
1F
100
AcDbEntity
  8
0
  6
Continuous
 62
     7
370
    25
100
AcDbLine
 10
231.5275510204
 20
140.0029005303
 30
0.0
 11
231.5275510204
 21
90.0029005303
 31
0.0
  0
INSERT
  5
93
330
1F
100
AcDbEntity
  8
FORMAT
100
AcDbBlockReference
  2
SW_CENTERMARKSYMBOL_0
 10
118.5275510204
 20
115.0029005303
 30
0.0
  0
LINE
  5
94
330
1F
100
AcDbEntity
  8
0
  6
Continuous
 62
     7
370
    25
100
AcDbLine
 10
81.0275510204
 20
27.1007033263
 30
0.0
 11
81.0275510204
 21
-233.8992966737
 31
0.0
  0
LINE
  5
95
330
1F
100
AcDbEntity
  8
0
  6
Continuous
 62
     7
370
    25
100
AcDbLine
 10
156.0275510204
 20
-78.428269952
 30
0.0
 11
156.0275510204
 21
27.1007033263
 31
0.0
  0
LINE
  5
96
330
1F
100
AcDbEntity
  8
0
  6
Continuous
 62
     7
370
    25
100
AcDbLine
 10
156.0275510204
 20
-233.8992966737
 30
0.0
 11
156.0275510204
 21
-128.3992966737
 31
0.0
  0
LINE
  5
97
330
1F
100
AcDbEntity
  8
0
  6
Continuous
 62
     7
370
    25
100
AcDbLine
 10
156.0275510204
 20
-128.3992966737
 30
0.0
 11
231.5275510204
 21
-128.3992966737
 31
0.0
  0
LINE
  5
98
330
1F
100
AcDbEntity
  8
0
  6
Continuous
 62
     7
370
    25
100
AcDbLine
 10
231.5275510204
 20
-78.3992966737
 30
0.0
 11
156.0083195562
 21
-78.3992966737
 31
0.0
  0
LWPOLYLINE
  5
99
330
1F
100
AcDbEntity
  8
0
  6
Continuous
 62
     7
370
    25
100
AcDbPolyline
 90
       25
 70
   128
 43
0.0
 10
156.0082806952
 20
-78.428269952
 10
155.8712335644
 20
-78.6343895278
 10
155.4067658693
 20
-79.3404835719
 10
154.6481260455
 20
-80.5203556986
 10
153.6203904003
 20
-82.1800277009
 10
152.3909424114
 20
-84.2817843748
 10
150.8825755771
 20
-87.1021308445
 10
149.3433523405
 20
-90.4237962594
 10
148.1032684052
 20
-93.7311500662
 10
147.1098043269
 20
-97.4247503249
 10
146.6243333337
 20
-100.5393707372
 10
146.4816275607
 20
-103.8240262571
 10
146.7104868146
 20
-107.0087107509
 10
147.2893547456
 20
-110.1809892004
 10
148.3700448902
 20
-113.8551295133
 10
149.7434948427
 20
-117.298402714
 10
151.2160358697
 20
-120.3488406718
 10
152.6946150634
 20
-123.0496978228
 10
153.4581270453
 20
-124.3492045331
 10
154.1553581481
 20
-125.4920701693
 10
154.7876610201
 20
-126.4980056795
 10
155.3076483279
 20
-127.305897393
 10
155.8375758012
 20
-128.1134211604
 10
156.0275510204
 20
-128.3992966737
 10
156.0275510204
 20
-128.3992966737
  0
LINE
  5
9A
330
1F
100
AcDbEntity
  8
0
  6
Continuous
 62
     7
370
    25
100
AcDbLine
 10
156.0275510204
 20
-233.8992966737
 30
0.0
 11
81.0275510204
 21
-233.8992966737
 31
0.0
  0
LINE
  5
9B
330
1F
100
AcDbEntity
  8
0
  6
Continuous
 62
     7
370
    25
100
AcDbLine
 10
156.0275510204
 20
27.1007033263
 30
0.0
 11
81.0275510204
 21
27.1007033263
 31
0.0
  0
LINE
  5
9C
330
1F
100
AcDbEntity
  8
0
  6
Continuous
 62
     7
370
    25
100
AcDbLine
 10
231.5275510204
 20
-78.3992966737
 30
0.0
 11
231.5275510204
 21
-128.3992966737
 31
0.0
  0
LINE
  5
9D
330
1F
100
AcDbEntity
  8
0
  6
Continuous
 62
     7
370
    25
100
AcDbLine
 10
156.0275510204
 20
349.9193160509
 30
0.0
 11
156.0275510204
 21
455.4193160509
 31
0.0
  0
LINE
  5
9E
330
1F
100
AcDbEntity
  8
0
  6
Continuous
 62
     7
370
    25
100
AcDbLine
 10
156.0275510204
 20
194.4193160509
 30
0.0
 11
156.0275510204
 21
299.9482893292
 31
0.0
  0
LINE
  5
9F
330
1F
100
AcDbEntity
  8
0
  6
Continuous
 62
     7
370
    25
100
AcDbLine
 10
81.0275510204
 20
455.4193160509
 30
0.0
 11
81.0275510204
 21
194.4193160509
 31
0.0
  0
LINE
  5
A0
330
1F
100
AcDbEntity
  8
0
  6
Continuous
 62
     7
370
    25
100
AcDbLine
 10
156.0083195562
 20
299.9193160509
 30
0.0
 11
231.5275510204
 21
299.9193160509
 31
0.0
  0
LINE
  5
A1
330
1F
100
AcDbEntity
  8
0
  6
Continuous
 62
     7
370
    25
100
AcDbLine
 10
231.5275510204
 20
349.9193160509
 30
0.0
 11
156.0275510204
 21
349.9193160509
 31
0.0
  0
SPLINE
  5
A2
330
1F
100
AcDbEntity
  8
0
  6
Continuous
 62
     7
370
    25
100
AcDbSpline
210
0.0
220
0.0
230
1.0
 70
     8
 71
     3
 72
    31
 73
    27
 74
     0
 42
0.000000001
 43
0.00000001
 40
0.0
 40
0.0
 40
0.0
 40
0.0
 40
0.045589524225703
 40
0.0926530080997515
 40
0.138210241138718
 40
0.1849041980674587
 40
0.2344439586620628
 40
0.2850630200404793
 40
0.3421400939275825
 40
0.3714718808383061
 40
0.4010732991053711
 40
0.4416886516105079
 40
0.483396054988445
 40
0.524053740558805
 40
0.5660179239231342
 40
0.6051311826177119
 40
0.6450410395468917
 40
0.6921626645711773
 40
0.7402124446042525
 40
0.7971991187533898
 40
0.8264640734875799
 40
0.8559772249489489
 40
0.9018153249733284
 40
0.948919054083187
 40
0.9947968132948918
 40
1.0
 40
1.0
 40
1.0
 40
1.0
 10
156.027551020408
 20
349.9193160509025
 30
0.0
 10
155.991891597009
 20
349.865986912298
 30
0.0
 10
155.9194198416851
 20
349.7576044451634
 30
0.0
 10
155.3494128585965
 20
348.8949661492874
 30
0.0
 10
154.4903360380616
 20
347.5588391130429
 30
0.0
 10
153.3626996320445
 20
345.731406958471
 30
0.0
 10
152.0177438004088
 20
343.4090294010907
 30
0.0
 10
150.4863473189205
 20
340.4970509459498
 30
0.0
 10
149.1767581769051
 20
337.5935917677332
 30
0.0
 10
148.1892071929603
 20
334.9125330103685
 30
0.0
 10
147.447831650627
 20
332.4869751684894
 30
0.0
 10
146.8079913244191
 20
329.6073164549038
 30
0.0
 10
146.4453627197702
 20
326.3035609663574
 30
0.0
 10
146.4828431488732
 20
322.9188093688548
 30
0.0
 10
146.910225844255
 20
319.6676668225606
 30
0.0
 10
147.6491921898444
 20
316.5856158088161
 30
0.0
 10
148.6516204384277
 20
313.5691860964988
 30
0.0
 10
149.8963406379995
 20
310.598481998002
 30
0.0
 10
151.3789354762351
 20
307.5978875585466
 30
0.0
 10
152.6590428368557
 20
305.3088107672172
 30
0.0
 10
153.6590486643273
 20
303.6290891764389
 30
0.0
 10
154.4742927827375
 20
302.3076290512388
 30
0.0
 10
155.2720045230452
 20
301.0625471303071
 30
0.0
 10
155.8313934284501
 20
300.2131206100401
 30
0.0
 10
156.0762593170418
 20
299.8460739796976
 30
0.0
 10
156.0145649789659
 20
299.9388400310752
 30
0.0
 10
156.0082806951905
 20
299.9482893291755
 30
0.0
  0
LINE
  5
A3
330
1F
100
AcDbEntity
  8
0
  6
Continuous
 62
     7
370
    25
100
AcDbLine
 10
81.0275510204
 20
455.4193160509
 30
0.0
 11
156.0275510204
 21
455.4193160509
 31
0.0
  0
LINE
  5
A4
330
1F
100
AcDbEntity
  8
0
  6
Continuous
 62
     7
370
    25
100
AcDbLine
 10
81.0275510204
 20
194.4193160509
 30
0.0
 11
156.0275510204
 21
194.4193160509
 31
0.0
  0
LINE
  5
A5
330
1F
100
AcDbEntity
  8
0
  6
Continuous
 62
     7
370
    25
100
AcDbLine
 10
231.5275510204
 20
349.9193160509
 30
0.0
 11
231.5275510204
 21
299.9193160509
 31
0.0
  0
LINE
  5
A6
330
1F
100
AcDbEntity
  8
0
  6
Continuous
 62
     7
370
    25
100
AcDbLine
 10
265.4236128261
 20
77.5029005303
 30
0.0
 11
526.4236128261
 21
77.5029005303
 31
0.0
  0
LINE
  5
A7
330
1F
100
AcDbEntity
  8
0
  6
Continuous
 62
     7
370
    25
100
AcDbLine
 10
526.4236128261
 20
152.5029005303
 30
0.0
 11
265.4236128261
 21
152.5029005303
 31
0.0
  0
LINE
  5
A8
330
1F
100
AcDbEntity
  8
0
  6
Continuous
 62
     7
370
    25
100
AcDbLine
 10
526.4236128261
 20
152.5029005303
 30
0.0
 11
526.4236128261
 21
77.5029005303
 31
0.0
  0
LINE
  5
A9
330
1F
100
AcDbEntity
  8
0
  6
Continuous
 62
     7
370
    25
100
AcDbLine
 10
265.4236128261
 20
152.5029005303
 30
0.0
 11
265.4236128261
 21
77.5029005303
 31
0.0
  0
LINE
  5
AA
330
1F
100
AcDbEntity
  8
0
  6
Continuous
 62
     7
370
    25
100
AcDbLine
 10
15.1085090883
 20
152.5029005303
 30
0.0
 11
-245.8914909117
 21
152.5029005303
 31
0.0
  0
LINE
  5
AB
330
1F
100
AcDbEntity
  8
0
  6
Continuous
 62
     7
370
    25
100
AcDbLine
 10
-245.8914909117
 20
77.5029005303
 30
0.0
 11
15.1085090883
 21
77.5029005303
 31
0.0
  0
CIRCLE
  5
AC
330
1F
100
AcDbEntity
  8
0
  6
Continuous
 62
     7
370
    25
100
AcDbCircle
 10
-115.3914909117
 20
115.0029005303
 30
0.0
 40
20.40000000000001
  0
CIRCLE
  5
AD
330
1F
100
AcDbEntity
  8
0
  6
Continuous
 62
     7
370
    25
100
AcDbCircle
 10
-115.3914909117
 20
115.0029005303
 30
0.0
 40
25.0
  0
LINE
  5
AE
330
1F
100
AcDbEntity
  8
0
  6
Continuous
 62
     7
370
    25
100
AcDbLine
 10
-245.8914909117
 20
115.0029005303
 30
0.0
 11
-245.8914909117
 21
152.5029005303
 31
0.0
  0
LINE
  5
AF
330
1F
100
AcDbEntity
  8
0
  6
Continuous
 62
     7
370
    25
100
AcDbLine
 10
-245.8914909117
 20
77.5029005303
 30
0.0
 11
-245.8914909117
 21
115.0029005303
 31
0.0
  0
LINE
  5
B0
330
1F
100
AcDbEntity
  8
0
  6
Continuous
 62
     7
370
    25
100
AcDbLine
 10
15.1085090883
 20
115.0029005303
 30
0.0
 11
15.1085090883
 21
152.5029005303
 31
0.0
  0
LINE
  5
B1
330
1F
100
AcDbEntity
  8
0
  6
Continuous
 62
     7
370
    25
100
AcDbLine
 10
15.1085090883
 20
77.5029005303
 30
0.0
 11
15.1085090883
 21
115.0029005303
 31
0.0
  0
INSERT
  5
BD
330
1F
100
AcDbEntity
  8
FORMAT
100
AcDbBlockReference
  2
SW_CENTERMARKSYMBOL_1
 10
-115.3914909117
 20
115.0029005303
 30
0.0
  0
LINE
  5
BE
330
1F
100
AcDbEntity
  8
0
  6
Continuous
 62
     7
370
    25
100
AcDbLine
 10
511.0751018994
 20
-127.5707567789
 30
0.0
 11
462.5542703407
 21
-99.5602769398
 31
0.0
  0
LINE
  5
BF
330
1F
100
AcDbEntity
  8
0
  6
Continuous
 62
     7
370
    25
100
AcDbLine
 10
412.5502066423
 20
-70.6935454124
 30
0.0
 11
326.5202320098
 21
-21.029498186
 31
0.0
  0
LINE
  5
C0
330
1F
100
AcDbEntity
  8
0
  6
Continuous
 62
     7
370
    25
100
AcDbLine
 10
289.0232795359
 20
-85.9831628646
 30
0.0
 11
473.5781494256
 21
-192.5244214574
 31
0.0
  0
LINE
  5
C1
330
1F
100
AcDbEntity
  8
0
  6
Continuous
 62
     7
370
    25
100
AcDbLine
 10
435.9262925789
 20
-114.9322812995
 30
0.0
 11
492.4512411497
 21
-82.3011230632
 31
0.0
  0
LINE
  5
C2
330
1F
100
AcDbEntity
  8
0
  6
Continuous
 62
     7
370
    25
100
AcDbLine
 10
467.4532728338
 20
-38.9986799442
 30
0.0
 11
410.9287266243
 21
-71.6296059022
 31
0.0
  0
SPLINE
  5
C3
330
1F
100
AcDbEntity
  8
0
  6
Continuous
 62
     7
370
    25
100
AcDbSpline
210
0.0
220
0.0
230
1.0
 70
     8
 71
     3
 72
    25
 73
    21
 74
     0
 42
0.000000001
 43
0.00000001
 40
0.0
 40
0.0
 40
0.0
 40
0.0
 40
0.0607089241612599
 40
0.1233806348623652
 40
0.1840465587238861
 40
0.2462261918330612
 40
0.3121954165614295
 40
0.3796018835191148
 40
0.4556081110200633
 40
0.4946675497249183
 40
0.5340860408621391
 40
0.5881711491604845
 40
0.6437104782418512
 40
0.6978519590268546
 40
0.7537332271169028
 40
0.8058180842440174
 40
0.8589637250189721
 40
0.9217128589163124
 40
0.9856979629843338
 40
1.0
 40
1.0
 40
1.0
 40
1.0
 10
408.8880254825006
 20
-81.2642063272527
 30
0.0
 10
408.9005198579581
 20
-82.31001555056804
 30
0.0
 10
408.9259125658254
 20
-84.4354461639457
 30
0.0
 10
409.1328341512669
 20
-87.98347721346921
 30
0.0
 10
409.470159594576
 20
-91.68449352297166
 30
0.0
 10
409.9649899106662
 20
-95.50608003738587
 30
0.0
 10
410.6561314536656
 20
-99.41556223068484
 30
0.0
 10
411.6323502783703
 20
-103.4547522335708
 30
0.0
 10
412.7593867674919
 20
-106.7598492562375
 30
0.0
 10
413.9568772149062
 20
-109.3324736139058
 30
0.0
 10
415.1477752801626
 20
-111.3822199447283
 30
0.0
 10
416.7315590686464
 20
-113.4312707746857
 30
0.0
 10
418.8112778734145
 20
-115.2594153285046
 30
0.0
 10
421.2310578674198
 20
-116.5918262238327
 30
0.0
 10
423.8325548975445
 20
-117.3520308813584
 30
0.0
 10
426.5330541371714
 20
-117.5913171944917
 30
0.0
 10
429.3802538543761
 20
-117.3769271824436
 30
0.0
 10
432.3368315093718
 20
-116.6097780080319
 30
0.0
 10
434.6135957407421
 20
-115.7607551379319
 30
0.0
 10
435.697767952789
 20
-115.0186986364617
 30
0.0
 10
435.8958320396034
 20
-114.8831346165622
 30
0.0
  0
SPLINE
  5
C4
330
1F
100
AcDbEntity
  8
0
  6
Continuous
 62
     7
370
    25
100
AcDbSpline
210
0.0
220
0.0
230
1.0
 70
     8
 71
     3
 72
    14
 73
    10
 74
     0
 42
0.000000001
 43
0.00000001
 40
0.0
 40
0.0
 40
0.0
 40
0.0
 40
0.1567266268474652
 40
0.2732442058540372
 40
0.3897466567405695
 40
0.5099850087872327
 40
0.6315065848902186
 40
0.8129506332900613
 40
1.0
 40
1.0
 40
1.0
 40
1.0
 10
410.9598412269975
 20
-71.68078081430691
 30
0.0
 10
410.7326483365108
 20
-71.82006797839945
 30
0.0
 10
410.3365500972682
 20
-72.06290744546183
 30
0.0
 10
409.9266043689829
 20
-72.79969349568299
 30
0.0
 10
409.6061358486617
 20
-73.63508299353302
 30
0.0
 10
409.3459902551481
 20
-74.6993518261041
 30
0.0
 10
409.1096587924978
 20
-76.21331713852375
 30
0.0
 10
408.9265543402203
 20
-78.31209494673215
 30
0.0
 10
408.9009980179603
 20
-80.27024045773886
 30
0.0
 10
408.8880254825006
 20
-81.2642063272527
 30
0.0
  0
LWPOLYLINE
  5
C5
330
1F
100
AcDbEntity
  8
0
  6
Continuous
 62
     7
370
    25
100
AcDbPolyline
 90
       84
 70
   128
 43
0.0
 10
334.2882600673
 20
-38.1986784286
 10
334.2123179997
 20
-35.9267454423
 10
333.984926786
 20
-33.7555067274
 10
333.6073889027
 20
-31.6973989426
 10
333.0818668524
 20
-29.7642107429
 10
332.411370778
 20
-27.9670152553
 10
331.5997412201
 20
-26.3161066527
 10
330.6516271194
 20
-24.8209411901
 10
329.5724591877
 20
-23.4900830398
 10
328.368418801
 20
-22.331155237
 10
327.0464025938
 20
-21.3507960149
 10
325.613982955
 20
-20.5546207826
 10
324.0793646547
 20
-19.9471899596
 10
322.4513378476
 20
-19.5319828547
 10
320.7392277237
 20
-19.3113777365
 10
318.9528410948
 20
-19.2866382112
 10
317.1024102217
 20
-19.4579059846
 10
315.1985342049
 20
-19.8242000504
 10
313.2521182739
 20
-20.3834223093
 10
311.2743113227
 20
-21.1323695868
 10
309.2764420505
 20
-22.0667519809
 10
307.2699540716
 20
-23.1812174337
 10
305.2663403673
 20
-24.4693823881
 10
303.2770774557
 20
-25.9238683518
 10
301.3135596544
 20
-27.536344161
 10
299.3870338156
 20
-29.2975737003
 10
297.5085349049
 20
-31.1974688064
 10
295.6888227939
 20
-33.2251470521
 10
293.9383206287
 20
-35.3689940801
 10
292.2670551273
 20
-37.6167301287
 10
290.6845991471
 20
-39.9554803695
 10
289.2000168527
 20
-42.3718486528
 10
287.821811797
 20
-44.8519942399
 10
286.5578782137
 20
-47.3817110816
 10
285.4154557999
 20
-49.9465091888
 10
284.4010882478
 20
-52.5316976302
 10
283.5205857629
 20
-55.1224686806
 10
282.7789917836
 20
-57.703982638
 10
282.1805540931
 20
-60.2614528242
 10
281.7287004884
 20
-62.7802302816
 10
281.4260191458
 20
-65.2458876811
 10
281.2742437968
 20
-67.6443019603
 10
281.2742437968
 20
-69.9617352194
 10
281.4260191458
 20
-72.1849134107
 10
281.7287004884
 20
-74.3011023707
 10
282.1805540931
 20
-76.2981807607
 10
282.7789917836
 20
-78.1647094966
 10
283.5205857629
 20
-79.8899972708
 10
284.4010882478
 20
-81.4641617912
 10
285.4154557999
 20
-82.8781863859
 10
286.5578782137
 20
-84.1239716501
 10
287.821811797
 20
-85.1943818387
 10
289.2000168527
 20
-86.0832857391
 10
290.6845991471
 20
-86.78559179
 10
292.2670551273
 20
-87.2972772463
 10
293.9383206287
 20
-87.6154112197
 10
295.6888227939
 20
-87.7381714679
 10
297.5085349049
 20
-87.6648548312
 10
299.3870338156
 20
-87.3958812606
 10
301.3135596544
 20
-86.9327914124
 10
303.2770774557
 20
-86.2782378233
 10
305.2663403673
 20
-85.435969717
 10
307.2699540716
 20
-84.410811529
 10
309.2764420505
 20
-83.2086352724
 10
311.2743113227
 20
-81.8363269041
 10
313.2521182739
 20
-80.3017468821
 10
315.1985342049
 20
-78.6136851417
 10
317.1024102217
 20
-76.7818107478
 10
318.9528410948
 20
-74.816616511
 10
320.7392277237
 20
-72.729358886
 10
322.4513378476
 20
-70.5319934953
 10
324.0793646547
 20
-68.2371066489
 10
325.613982955
 20
-65.8578432509
 10
327.0464025938
 20
-63.4078315066
 10
328.368418801
 20
-60.9011048613
 10
329.5724591877
 20
-58.3520216183
 10
330.6516271194
 20
-55.7751826955
 10
331.5997412201
 20
-53.185347993
 10
332.411370778
 20
-50.5973518493
 10
333.0818668524
 20
-48.0260180721
 10
333.6073889027
 20
-45.4860750283
 10
333.984926786
 20
-42.9920712817
 10
334.2123179997
 20
-40.5582922598
 10
334.2882600673
 20
-38.1986784286
  0
LWPOLYLINE
  5
C6
330
1F
100
AcDbEntity
  8
0
  6
Continuous
 62
     7
370
    25
100
AcDbPolyline
 90
       12
 70
   128
 43
0.0
 10
518.843129957
 20
-144.7399370215
 10
518.7671878894
 20
-142.4680040352
 10
518.5397966757
 20
-140.2967653203
 10
518.1622587924
 20
-138.2386575355
 10
517.6367367421
 20
-136.3054693358
 10
516.9662406676
 20
-134.5082738481
 10
516.1546111098
 20
-132.8573652455
 10
515.2064970091
 20
-131.3621997829
 10
514.1273290774
 20
-130.0313416327
 10
512.9232886907
 20
-128.8724138298
 10
511.6012724834
 20
-127.8920546078
 10
511.0751018994
 20
-127.5707567789
  0
LWPOLYLINE
  5
C7
330
1F
100
AcDbEntity
  8
0
  6
Continuous
 62
     7
370
    25
100
AcDbPolyline
 90
       33
 70
   128
 43
0.0
 10
473.5781494256
 20
-192.5244214574
 10
473.7548867424
 20
-192.6245443319
 10
475.2394690368
 20
-193.3268503829
 10
476.821925017
 20
-193.8385358391
 10
478.4931905184
 20
-194.1566698126
 10
480.2436926835
 20
-194.2794300608
 10
482.0634047946
 20
-194.206113424
 10
483.9419037053
 20
-193.9371398534
 10
485.8684295441
 20
-193.4740500052
 10
487.8319473454
 20
-192.8194964162
 10
489.821210257
 20
-191.9772283099
 10
491.8248239613
 20
-190.9520701218
 10
493.8313119402
 20
-189.7498938653
 10
495.8291812124
 20
-188.377585497
 10
497.8069881635
 20
-186.8430054749
 10
499.7534040946
 20
-185.1549437346
 10
501.6572801114
 20
-183.3230693407
 10
503.5077109845
 20
-181.3578751039
 10
505.2940976134
 20
-179.2706174788
 10
507.0062077373
 20
-177.0732520881
 10
508.6342345444
 20
-174.7783652418
 10
510.1688528447
 20
-172.3991018438
 10
511.6012724834
 20
-169.9490900994
 10
512.9232886907
 20
-167.4423634542
 10
514.1273290774
 20
-164.8932802112
 10
515.2064970091
 20
-162.3164412884
 10
516.1546111098
 20
-159.7266065858
 10
516.9662406676
 20
-157.1386104422
 10
517.6367367421
 20
-154.5672766649
 10
518.1622587924
 20
-152.0273336211
 10
518.5397966757
 20
-149.5333298745
 10
518.7671878894
 20
-147.0995508527
 10
518.843129957
 20
-144.7399370215
  0
LWPOLYLINE
  5
C8
330
1F
100
AcDbEntity
  8
0
  6
Continuous
 62
     7
370
    25
100
AcDbPolyline
 90
       76
 70
   128
 43
0.0
 10
329.4799339553
 20
-40.9744660088
 10
329.4038003189
 20
-38.9207973357
 10
329.1759334327
 20
-36.9694356982
 10
328.7979316191
 20
-35.1340684962
 10
328.2724462892
 20
-33.4275695119
 10
327.6031633451
 20
-31.8619086095
 10
326.7947773257
 20
-30.4480677754
 10
325.8529584781
 20
-29.1959640871
 10
324.7843129849
 20
-28.1143801524
 10
323.5963366263
 20
-27.2109025054
 10
322.297362203
 20
-26.4918683928
 10
320.8965010872
 20
-25.9623213222
 10
319.4035793131
 20
-25.6259756858
 10
317.8290686544
 20
-25.4851907066
 10
316.184013172
 20
-25.5409538901
 10
314.4799517481
 20
-25.7928740976
 10
312.7288371493
 20
-26.2391842898
 10
310.9429521863
 20
-26.8767539214
 10
309.1348235589
 20
-27.7011108996
 10
307.3171339904
 20
-28.7064729524
 10
305.5026332671
 20
-29.8857881875
 10
303.7040488077
 20
-31.2307845557
 10
301.9339963901
 20
-32.7320278739
 10
300.2048916601
 20
-34.3789879989
 10
298.5288630451
 20
-36.1601126888
 10
296.9176666816
 20
-38.0629086335
 10
295.3826039544
 20
-40.0740290867
 10
293.9344422256
 20
-42.1793674834
 10
292.5833393092
 20
-44.3641563875
 10
291.3387722215
 20
-46.6130710745
 10
290.2094707063
 20
-48.9103370237
 10
289.2033560024
 20
-51.2398405651
 10
288.3274852815
 20
-53.5852419051
 10
287.5880021473
 20
-55.9300897385
 10
286.9900935429
 20
-58.2579366425
 10
286.5379533674
 20
-60.5524544436
 10
286.2347530593
 20
-62.797548748
 10
286.0826193509
 20
-64.9774718324
 10
286.0826193509
 20
-67.0769331024
 10
286.2347530593
 20
-69.0812063459
 10
286.5379533674
 20
-70.976233026
 10
286.9900935429
 20
-72.7487208922
 10
287.5880021473
 20
-74.3862372156
 10
288.3274852815
 20
-75.8772959957
 10
289.2033560024
 20
-77.2114385266
 10
290.2094707063
 20
-78.3793067569
 10
291.3387722215
 20
-79.3727089302
 10
292.5833393092
 20
-80.184677044
 10
293.9344422256
 20
-80.8095157253
 10
295.3826039544
 20
-81.2428421797
 10
296.9176666816
 20
-81.4816169335
 10
298.5288630451
 20
-81.5241651534
 10
300.2048916601
 20
-81.3701883942
 10
301.9339963901
 20
-81.0207666921
 10
303.7040488077
 20
-80.4783509895
 10
305.5026332671
 20
-79.7467459426
 10
307.3171339904
 20
-78.8310832354
 10
309.1348235589
 20
-77.7377855836
 10
310.9429521863
 20
-76.4745216849
 10
312.7288371493
 20
-75.0501524279
 10
314.4799517481
 20
-73.4746687394
 10
316.184013172
 20
-71.7591215056
 10
317.8290686544
 20
-69.9155440576
 10
319.4035793131
 20
-67.9568677668
 10
320.8965010872
 20
-65.8968313399
 10
322.297362203
 20
-63.7498844523
 10
323.5963366263
 20
-61.5310863939
 10
324.7843129849
 20
-59.2560004389
 10
325.8529584781
 20
-56.9405846805
 10
326.7947773257
 20
-54.6010800968
 10
327.6031633451
 20
-52.2538966314
 10
328.2724462892
 20
-49.9154980899
 10
328.7979316191
 20
-47.6022866579
 10
329.1759334327
 20
-45.3304878516
 10
329.4038003189
 20
-43.1160367074
 10
329.4799339553
 20
-40.9744660088
  0
LWPOLYLINE
  5
C9
330
1F
100
AcDbEntity
  8
0
  6
Continuous
 62
     7
370
    25
100
AcDbPolyline
 90
       62
 70
   128
 43
0.0
 10
494.377235328
 20
-68.9772642443
 10
494.3007811485
 20
-67.2203943602
 10
494.0722290435
 20
-65.3938756172
 10
493.6940017221
 20
-63.5170695685
 10
493.1701084881
 20
-61.609870825
 10
492.5061027399
 20
-59.6924961679
 10
491.7090231038
 20
-57.7852702455
 10
490.7873188222
 20
-55.9084101271
 10
489.7507601897
 20
-54.0818109968
 10
488.6103349857
 20
-52.3248352599
 10
487.3781320012
 20
-50.6561072961
 10
486.0672128941
 20
-49.0933160372
 10
484.6914737333
 20
-47.6530274591
 10
483.2654976961
 20
-46.3505089792
 10
481.8044004831
 20
-45.1995676172
 10
480.3236700884
 20
-44.2124036381
 10
478.8390026225
 20
-43.3994812255
 10
477.3661359298
 20
-42.7694175593
 10
475.9206827637
 20
-42.328891471
 10
474.5179652874
 20
-42.0825726468
 10
473.1728526551
 20
-42.0330721275
 10
471.8996033952
 20
-42.1809146309
 10
470.7117142667
 20
-42.5245329897
 10
469.6217771899
 20
-43.0602847638
 10
468.6413457689
 20
-43.7824908511
 10
467.7808128207
 20
-44.6834956875
 10
467.0493002086
 20
-45.7537483975
 10
466.4545621483
 20
-46.9819040361
 10
466.0029030111
 20
-48.3549438482
 10
465.6991104964
 20
-49.8583132699
 10
465.5464048802
 20
-51.4760762116
 10
465.5464048802
 20
-53.1910839836
 10
465.6991104964
 20
-54.9851570768
 10
466.0029030111
 20
-56.8392778702
 10
466.4545621483
 20
-58.7337922221
 10
467.0493002086
 20
-60.648617809
 10
467.7808128207
 20
-62.5634570034
 10
468.6413457689
 20
-64.4580120335
 10
469.6217771899
 20
-66.3122001446
 10
470.7117142667
 20
-68.1063664815
 10
471.8996033952
 20
-69.8214924346
 10
473.1728526551
 20
-71.4393972423
 10
474.5179652874
 20
-72.9429307111
 10
475.9206827637
 20
-74.3161550121
 10
477.3661359298
 20
-75.5445136261
 10
478.8390026225
 20
-76.6149856463
 10
480.3236700884
 20
-77.516223803
 10
481.8044004831
 20
-78.2386747474
 10
483.2654976961
 20
-78.7746803199
 10
484.6914737333
 20
-79.118558728
 10
486.0672128941
 20
-79.2666647751
 10
487.3781320012
 20
-79.2174285001
 10
488.6103349857
 20
-78.97137182
 10
489.7507601897
 20
-78.5311029967
 10
490.7873188222
 20
-77.9012889892
 10
491.7090231038
 20
-77.0886059827
 10
492.5061027399
 20
-76.1016686193
 10
493.1701084881
 20
-74.9509386805
 10
493.6940017221
 20
-73.6486141899
 10
494.0722290435
 20
-72.2085001112
 10
494.3007811485
 20
-70.6458620118
 10
494.377235328
 20
-68.9772642443
  0
LWPOLYLINE
  5
CA
330
1F
100
AcDbEntity
  8
0
  6
Continuous
 62
     7
370
    25
100
AcDbPolyline
 90
       69
 70
   128
 43
0.0
 10
497.6299265214
 20
-70.8550029015
 10
497.5545166997
 20
-68.9279477094
 10
497.3289306045
 20
-66.9302671458
 10
496.9550928569
 20
-64.8790047169
 10
496.4361929087
 20
-62.7916610705
 10
495.7766578314
 20
-60.6860446867
 10
494.9821145456
 20
-58.580119942
 10
494.0593418146
 20
-56.4918538438
 10
493.0162124098
 20
-54.4390627422
 10
491.8616259437
 20
-52.4392603269
 10
490.6054329408
 20
-50.5095082072
 10
489.2583507969
 20
-48.6662703478
 10
487.8318723419
 20
-46.925272604
 10
486.338167787
 20
-45.3013685548
 10
484.7899808927
 20
-43.808412777
 10
483.2005202439
 20
-42.4591426429
 10
481.5833465584
 20
-41.2650696495
 10
479.9522569917
 20
-40.2363812066
 10
478.3211674251
 20
-39.3818537212
 10
476.7039937396
 20
-38.7087777207
 10
475.1145330908
 20
-38.222895652
 10
473.5663461965
 20
-37.9283528897
 10
472.0726416416
 20
-37.8276623688
 10
470.6461631866
 20
-37.9216831453
 10
469.2990810427
 20
-38.2096130671
 10
468.0428880398
 20
-38.6889956176
 10
466.8883015736
 20
-39.3557408739
 10
465.8451721689
 20
-40.2041604007
 10
464.9223994379
 20
-41.2270157815
 10
464.1278561521
 20
-42.415580375
 10
463.4683210747
 20
-43.7597137672
 10
462.9494211266
 20
-45.2479482857
 10
462.575583379
 20
-46.8675868386
 10
462.3499972838
 20
-48.6048112407
 10
462.2745874621
 20
-50.4448001059
 10
462.3499972838
 20
-52.3718552981
 10
462.575583379
 20
-54.3695358617
 10
462.9494211266
 20
-56.4207982906
 10
463.4683210747
 20
-58.5081419369
 10
464.1278561521
 20
-60.6137583207
 10
464.9223994379
 20
-62.7196830654
 10
465.8451721689
 20
-64.8079491636
 10
466.8883015736
 20
-66.8607402653
 10
468.0428880398
 20
-68.8605426805
 10
469.2990810427
 20
-70.7902948002
 10
470.6461631866
 20
-72.6335326597
 10
472.0726416416
 20
-74.3745304035
 10
473.5663461965
 20
-75.9984344527
 10
475.1145330908
 20
-77.4913902304
 10
476.7039937396
 20
-78.8406603646
 10
478.3211674251
 20
-80.034733358
 10
479.9522569917
 20
-81.0634218009
 10
481.5833465584
 20
-81.9179492862
 10
483.2005202439
 20
-82.5910252868
 10
484.7899808927
 20
-83.0769073555
 10
486.338167787
 20
-83.3714501177
 10
487.8318723419
 20
-83.4721406386
 10
489.2583507969
 20
-83.3781198621
 10
490.6054329408
 20
-83.0901899404
 10
491.8616259437
 20
-82.6108073898
 10
493.0162124099
 20
-81.9440621335
 10
494.0593418146
 20
-81.0956426068
 10
494.9821145456
 20
-80.0727872259
 10
495.7766578314
 20
-78.8842226324
 10
496.4361929087
 20
-77.5400892403
 10
496.9550928569
 20
-76.0518547217
 10
497.3289306045
 20
-74.4322161688
 10
497.5545166997
 20
-72.6949917667
 10
497.6299265214
 20
-70.8550029015
  0
ENDSEC
  0
SECTION
  2
OBJECTS
  0
DICTIONARY
  5
C
330
0
100
AcDbDictionary
281
     1
  3
ACAD_GROUP
350
D
  3
ACAD_LAYOUT
350
1A
  3
ACAD_MLINESTYLE
350
17
  3
ACAD_PLOTSETTINGS
350
19
  3
ACAD_PLOTSTYLENAME
350
E
  3
ACAD_SCALELIST
350
47
  0
DICTIONARY
  5
D
102
{ACAD_REACTORS
330
C
102
}
330
C
100
AcDbDictionary
281
     1
  0
DICTIONARY
  5
1A
102
{ACAD_REACTORS
330
C
102
}
330
C
100
AcDbDictionary
281
     1
  3
Layout1
350
1E
  3
Layout2
350
26
  3
Model
350
22
  0
DICTIONARY
  5
17
102
{ACAD_REACTORS
330
C
102
}
330
C
100
AcDbDictionary
281
     1
  3
Standard
350
18
  0
DICTIONARY
  5
19
102
{ACAD_REACTORS
330
C
102
}
330
C
100
AcDbDictionary
281
     1
  0
ACDBDICTIONARYWDFLT
  5
E
102
{ACAD_REACTORS
330
C
102
}
330
C
100
AcDbDictionary
281
     1
  3
Normal
350
F
100
AcDbDictionaryWithDefault
340
F
  0
DICTIONARY
  5
47
102
{ACAD_REACTORS
330
C
102
}
330
C
100
AcDbDictionary
281
     1
  3
A0
350
48
  3
A1
350
49
  3
A2
350
4A
  3
A3
350
4B
  3
A4
350
4C
  3
A5
350
4D
  3
A6
350
4E
  3
A7
350
4F
  3
A8
350
50
  3
A9
350
51
  3
B0
350
52
  3
B1
350
53
  3
B2
350
54
  3
B3
350
55
  3
B4
350
56
  3
B5
350
57
  3
B6
350
58
  3
B7
350
59
  3
B8
350
5A
  3
B9
350
5B
  3
C0
350
5C
  3
C1
350
5D
  3
C2
350
5E
  3
C3
350
5F
  3
C4
350
60
  3
C5
350
61
  3
C6
350
62
  3
C7
350
63
  3
C8
350
64
  3
C9
350
65
  3
D0
350
66
  3
D1
350
67
  3
D2
350
68
  0
LAYOUT
  5
1E
102
{ACAD_REACTORS
330
1A
102
}
330
1A
100
AcDbPlotSettings
  1

  2
none_device
  4

  6

 40
0.0
 41
0.0
 42
0.0
 43
0.0
 44
0.0
 45
0.0
 46
0.0
 47
0.0
 48
0.0
 49
0.0
140
0.0
141
0.0
142
1.0
143
1.0
 70
   688
 72
     1
 73
     0
 74
     5
  7

 75
    16
147
1.0
148
0.0
149
0.0
100
AcDbLayout
  1
Layout1
 70
     1
 71
     1
 10
0.0
 20
0.0
 11
420.0
 21
297.0
 12
0.0
 22
0.0
 32
0.0
 14
1.0000000000E+20
 24
1.0000000000E+20
 34
1.0000000000E+20
 15
-1.0000000000E+20
 25
-1.0000000000E+20
 35
-1.0000000000E+20
146
0.0
 13
0.0
 23
0.0
 33
0.0
 16
1.0
 26
0.0
 36
0.0
 17
0.0
 27
1.0
 37
0.0
 76
     0
330
1B
  0
LAYOUT
  5
26
102
{ACAD_REACTORS
330
1A
102
}
330
1A
100
AcDbPlotSettings
  1

  2
none_device
  4

  6

 40
0.0
 41
0.0
 42
0.0
 43
0.0
 44
0.0
 45
0.0
 46
0.0
 47
0.0
 48
0.0
 49
0.0
140
0.0
141
0.0
142
1.0
143
1.0
 70
   688
 72
     1
 73
     0
 74
     5
  7

 75
    16
147
1.0
148
0.0
149
0.0
100
AcDbLayout
  1
Layout2
 70
     1
 71
     2
 10
0.0
 20
0.0
 11
0.0
 21
0.0
 12
0.0
 22
0.0
 32
0.0
 14
0.0
 24
0.0
 34
0.0
 15
0.0
 25
0.0
 35
0.0
146
0.0
 13
0.0
 23
0.0
 33
0.0
 16
1.0
 26
0.0
 36
0.0
 17
0.0
 27
1.0
 37
0.0
 76
     0
330
23
  0
LAYOUT
  5
22
102
{ACAD_REACTORS
330
1A
102
}
330
1A
100
AcDbPlotSettings
  1

  2
none_device
  4
Letter_(8.50_x_11.00_Inches)
  6

 40
6.35
 41
6.35
 42
6.35000508
 43
6.35000508
 44
215.9
 45
279.4
 46
0.0
 47
0.0
 48
0.0
 49
0.0
140
0.0
141
0.0
142
1.0
143
1.0
 70
  1712
 72
     1
 73
     0
 74
     0
  7

 75
     0
147
1.0
148
0.0
149
0.0
100
AcDbLayout
  1
Model
 70
     1
 71
     0
 10
0.0
 20
0.0
 11
279.4
 21
215.9
 12
0.0
 22
0.0
 32
0.0
 14
0.0
 24
0.0
 34
0.0
 15
279.4
 25
215.9
 35
0.0
146
0.0
 13
0.0
 23
0.0
 33
0.0
 16
1.0
 26
0.0
 36
0.0
 17
0.0
 27
1.0
 37
0.0
 76
     0
330
1F
331
29
  0
MLINESTYLE
  5
18
102
{ACAD_REACTORS
330
17
102
}
330
17
100
AcDbMlineStyle
  2
Standard
 70
     0
  3

 62
   256
 51
90.0
 52
90.0
 71
     2
 49
0.5
 62
   256
  6
BYLAYER
 49
-0.5
 62
   256
  6
BYLAYER
  0
ACDBPLACEHOLDER
  5
F
102
{ACAD_REACTORS
330
E
102
}
330
E
  0
SCALE
  5
48
102
{ACAD_REACTORS
330
47
102
}
330
47
100
AcDbScale
 70
     0
300
1:1
140
1.0
141
1.0
290
     1
  0
SCALE
  5
49
102
{ACAD_REACTORS
330
47
102
}
330
47
100
AcDbScale
 70
     0
300
1:2
140
1.0
141
2.0
290
     0
  0
SCALE
  5
4A
102
{ACAD_REACTORS
330
47
102
}
330
47
100
AcDbScale
 70
     0
300
1:4
140
1.0
141
4.0
290
     0
  0
SCALE
  5
4B
102
{ACAD_REACTORS
330
47
102
}
330
47
100
AcDbScale
 70
     0
300
1:5
140
1.0
141
5.0
290
     0
  0
SCALE
  5
4C
102
{ACAD_REACTORS
330
47
102
}
330
47
100
AcDbScale
 70
     0
300
1:8
140
1.0
141
8.0
290
     0
  0
SCALE
  5
4D
102
{ACAD_REACTORS
330
47
102
}
330
47
100
AcDbScale
 70
     0
300
1:10
140
1.0
141
10.0
290
     0
  0
SCALE
  5
4E
102
{ACAD_REACTORS
330
47
102
}
330
47
100
AcDbScale
 70
     0
300
1:16
140
1.0
141
16.0
290
     0
  0
SCALE
  5
4F
102
{ACAD_REACTORS
330
47
102
}
330
47
100
AcDbScale
 70
     0
300
1:20
140
1.0
141
20.0
290
     0
  0
SCALE
  5
50
102
{ACAD_REACTORS
330
47
102
}
330
47
100
AcDbScale
 70
     0
300
1:30
140
1.0
141
30.0
290
     0
  0
SCALE
  5
51
102
{ACAD_REACTORS
330
47
102
}
330
47
100
AcDbScale
 70
     0
300
1:40
140
1.0
141
40.0
290
     0
  0
SCALE
  5
52
102
{ACAD_REACTORS
330
47
102
}
330
47
100
AcDbScale
 70
     0
300
1:50
140
1.0
141
50.0
290
     0
  0
SCALE
  5
53
102
{ACAD_REACTORS
330
47
102
}
330
47
100
AcDbScale
 70
     0
300
1:100
140
1.0
141
100.0
290
     0
  0
SCALE
  5
54
102
{ACAD_REACTORS
330
47
102
}
330
47
100
AcDbScale
 70
     0
300
2:1
140
2.0
141
1.0
290
     0
  0
SCALE
  5
55
102
{ACAD_REACTORS
330
47
102
}
330
47
100
AcDbScale
 70
     0
300
4:1
140
4.0
141
1.0
290
     0
  0
SCALE
  5
56
102
{ACAD_REACTORS
330
47
102
}
330
47
100
AcDbScale
 70
     0
300
8:1
140
8.0
141
1.0
290
     0
  0
SCALE
  5
57
102
{ACAD_REACTORS
330
47
102
}
330
47
100
AcDbScale
 70
     0
300
10:1
140
10.0
141
1.0
290
     0
  0
SCALE
  5
58
102
{ACAD_REACTORS
330
47
102
}
330
47
100
AcDbScale
 70
     0
300
100:1
140
100.0
141
1.0
290
     0
  0
SCALE
  5
59
102
{ACAD_REACTORS
330
47
102
}
330
47
100
AcDbScale
 70
     0
300
1/128" = 1'-0"
140
0.0078125
141
12.0
290
     0
  0
SCALE
  5
5A
102
{ACAD_REACTORS
330
47
102
}
330
47
100
AcDbScale
 70
     0
300
1/64" = 1'-0"
140
0.015625
141
12.0
290
     0
  0
SCALE
  5
5B
102
{ACAD_REACTORS
330
47
102
}
330
47
100
AcDbScale
 70
     0
300
1/32" = 1'-0"
140
0.03125
141
12.0
290
     0
  0
SCALE
  5
5C
102
{ACAD_REACTORS
330
47
102
}
330
47
100
AcDbScale
 70
     0
300
1/16" = 1'-0"
140
0.0625
141
12.0
290
     0
  0
SCALE
  5
5D
102
{ACAD_REACTORS
330
47
102
}
330
47
100
AcDbScale
 70
     0
300
3/32" = 1'-0"
140
0.09375
141
12.0
290
     0
  0
SCALE
  5
5E
102
{ACAD_REACTORS
330
47
102
}
330
47
100
AcDbScale
 70
     0
300
1/8" = 1'-0"
140
0.125
141
12.0
290
     0
  0
SCALE
  5
5F
102
{ACAD_REACTORS
330
47
102
}
330
47
100
AcDbScale
 70
     0
300
3/16" = 1'-0"
140
0.1875
141
12.0
290
     0
  0
SCALE
  5
60
102
{ACAD_REACTORS
330
47
102
}
330
47
100
AcDbScale
 70
     0
300
1/4" = 1'-0"
140
0.25
141
12.0
290
     0
  0
SCALE
  5
61
102
{ACAD_REACTORS
330
47
102
}
330
47
100
AcDbScale
 70
     0
300
3/8" = 1'-0"
140
0.375
141
12.0
290
     0
  0
SCALE
  5
62
102
{ACAD_REACTORS
330
47
102
}
330
47
100
AcDbScale
 70
     0
300
1/2" = 1'-0"
140
0.5
141
12.0
290
     0
  0
SCALE
  5
63
102
{ACAD_REACTORS
330
47
102
}
330
47
100
AcDbScale
 70
     0
300
3/4" = 1'-0"
140
0.75
141
12.0
290
     0
  0
SCALE
  5
64
102
{ACAD_REACTORS
330
47
102
}
330
47
100
AcDbScale
 70
     0
300
1" = 1'-0"
140
1.0
141
12.0
290
     0
  0
SCALE
  5
65
102
{ACAD_REACTORS
330
47
102
}
330
47
100
AcDbScale
 70
     0
300
1-1/2" = 1'-0"
140
1.5
141
12.0
290
     0
  0
SCALE
  5
66
102
{ACAD_REACTORS
330
47
102
}
330
47
100
AcDbScale
 70
     0
300
3" = 1'-0"
140
3.0
141
12.0
290
     0
  0
SCALE
  5
67
102
{ACAD_REACTORS
330
47
102
}
330
47
100
AcDbScale
 70
     0
300
6" = 1'-0"
140
6.0
141
12.0
290
     0
  0
SCALE
  5
68
102
{ACAD_REACTORS
330
47
102
}
330
47
100
AcDbScale
 70
     0
300
1'-0" = 1'-0"
140
12.0
141
12.0
290
     0
  0
ENDSEC
  0
EOF
